  0
SECTION
  2
HEADER
  9
$ACADVER
  1
AC1015
  9
$ACADMAINTVER
 70
     6
  9
$DWGCODEPAGE
  3
ANSI_1254
  9
$INSBASE
 10
0.0
 20
0.0
 30
0.0
  9
$EXTMIN
 10
0.0
 20
0.0
 30
0.0
  9
$EXTMAX
 10
279.4
 20
215.9
 30
0.0
  9
$LIMMIN
 10
0.0
 20
0.0
  9
$LIMMAX
 10
279.4
 20
215.9
  9
$ORTHOMODE
 70
     0
  9
$REGENMODE
 70
     1
  9
$FILLMODE
 70
     1
  9
$QTEXTMODE
 70
     0
  9
$MIRRTEXT
 70
     1
  9
$LTSCALE
 40
1.0
  9
$ATTMODE
 70
     1
  9
$TEXTSIZE
 40
3.5
  9
$TRACEWID
 40
1.0
  9
$TEXTSTYLE
  7
Standard
  9
$CLAYER
  8
0
  9
$CELTYPE
  6
ByLayer
  9
$CECOLOR
 62
   256
  9
$CELTSCALE
 40
1.0
  9
$DISPSILH
 70
     0
  9
$DIMSCALE
 40
1.0
  9
$DIMASZ
 40
3.5
  9
$DIMEXO
 40
1.0
  9
$DIMDLI
 40
3.75
  9
$DIMRND
 40
0.0
  9
$DIMDLE
 40
0.0
  9
$DIMEXE
 40
1.0
  9
$DIMTP
 40
0.0
  9
$DIMTM
 40
0.0
  9
$DIMTXT
 40
3.5
  9
$DIMCEN
 40
2.5
  9
$DIMTSZ
 40
0.0
  9
$DIMTOL
 70
     0
  9
$DIMLIM
 70
     0
  9
$DIMTIH
 70
     1
  9
$DIMTOH
 70
     1
  9
$DIMSE1
 70
     0
  9
$DIMSE2
 70
     0
  9
$DIMTAD
 70
     1
  9
$DIMZIN
 70
     0
  9
$DIMBLK
  1

  9
$DIMASO
 70
     1
  9
$DIMSHO
 70
     1
  9
$DIMPOST
  1

  9
$DIMAPOST
  1

  9
$DIMALT
 70
     0
  9
$DIMALTD
 70
     3
  9
$DIMALTF
 40
0.0393700787
  9
$DIMLFAC
 40
1.0
  9
$DIMTOFL
 70
     1
  9
$DIMTVP
 40
0.0
  9
$DIMTIX
 70
     0
  9
$DIMSOXD
 70
     0
  9
$DIMSAH
 70
     0
  9
$DIMBLK1
  1

  9
$DIMBLK2
  1

  9
$DIMSTYLE
  2
ISO-25
  9
$DIMCLRD
 70
     0
  9
$DIMCLRE
 70
     0
  9
$DIMCLRT
 70
     0
  9
$DIMTFAC
 40
1.0
  9
$DIMGAP
 40
1.524
  9
$DIMJUST
 70
     0
  9
$DIMSD1
 70
     0
  9
$DIMSD2
 70
     0
  9
$DIMTOLJ
 70
     0
  9
$DIMTZIN
 70
     0
  9
$DIMALTZ
 70
     0
  9
$DIMALTTZ
 70
     0
  9
$DIMUPT
 70
     0
  9
$DIMDEC
 70
     2
  9
$DIMTDEC
 70
     2
  9
$DIMALTU
 70
     2
  9
$DIMALTTD
 70
     3
  9
$DIMTXSTY
  7
Standard
  9
$DIMAUNIT
 70
     0
  9
$DIMADEC
 70
     2
  9
$DIMALTRND
 40
0.0
  9
$DIMAZIN
 70
     0
  9
$DIMDSEP
 70
    44
  9
$DIMATFIT
 70
     3
  9
$DIMFRAC
 70
     0
  9
$DIMLDRBLK
  1

  9
$DIMLUNIT
 70
     2
  9
$DIMLWD
 70
    -2
  9
$DIMLWE
 70
    -2
  9
$DIMTMOVE
 70
     0
  9
$LUNITS
 70
     2
  9
$LUPREC
 70
     2
  9
$SKETCHINC
 40
1.0
  9
$FILLETRAD
 40
10.0
  9
$AUNITS
 70
     0
  9
$AUPREC
 70
     2
  9
$MENU
  1
.
  9
$ELEVATION
 40
0.0
  9
$PELEVATION
 40
0.0
  9
$THICKNESS
 40
0.0
  9
$LIMCHECK
 70
     0
  9
$CHAMFERA
 40
0.0
  9
$CHAMFERB
 40
0.0
  9
$CHAMFERC
 40
0.0
  9
$CHAMFERD
 40
0.0
  9
$SKPOLY
 70
     0
  9
$TDCREATE
 40
2458985.691180417
  9
$TDUCREATE
 40
2458985.566180417
  9
$TDUPDATE
 40
2458985.691180706
  9
$TDUUPDATE
 40
2458985.566180706
  9
$TDINDWG
 40
0.0000000116
  9
$TDUSRTIMER
 40
0.0000000116
  9
$USRTIMER
 70
     1
  9
$ANGBASE
 50
0.0
  9
$ANGDIR
 70
     0
  9
$PDMODE
 70
     0
  9
$PDSIZE
 40
-1.0
  9
$PLINEWID
 40
0.0
  9
$SPLFRAME
 70
     0
  9
$SPLINETYPE
 70
     6
  9
$SPLINESEGS
 70
     8
  9
$HANDSEED
  5
CB
  9
$SURFTAB1
 70
     6
  9
$SURFTAB2
 70
     6
  9
$SURFTYPE
 70
     6
  9
$SURFU
 70
     6
  9
$SURFV
 70
     6
  9
$UCSBASE
  2

  9
$UCSNAME
  2

  9
$UCSORG
 10
0.0
 20
0.0
 30
0.0
  9
$UCSXDIR
 10
1.0
 20
0.0
 30
0.0
  9
$UCSYDIR
 10
0.0
 20
1.0
 30
0.0
  9
$UCSORTHOREF
  2

  9
$UCSORTHOVIEW
 70
     0
  9
$UCSORGTOP
 10
0.0
 20
0.0
 30
0.0
  9
$UCSORGBOTTOM
 10
0.0
 20
0.0
 30
0.0
  9
$UCSORGLEFT
 10
0.0
 20
0.0
 30
0.0
  9
$UCSORGRIGHT
 10
0.0
 20
0.0
 30
0.0
  9
$UCSORGFRONT
 10
0.0
 20
0.0
 30
0.0
  9
$UCSORGBACK
 10
0.0
 20
0.0
 30
0.0
  9
$PUCSBASE
  2

  9
$PUCSNAME
  2

  9
$PUCSORG
 10
0.0
 20
0.0
 30
0.0
  9
$PUCSXDIR
 10
1.0
 20
0.0
 30
0.0
  9
$PUCSYDIR
 10
0.0
 20
1.0
 30
0.0
  9
$PUCSORTHOREF
  2

  9
$PUCSORTHOVIEW
 70
     0
  9
$PUCSORGTOP
 10
0.0
 20
0.0
 30
0.0
  9
$PUCSORGBOTTOM
 10
0.0
 20
0.0
 30
0.0
  9
$PUCSORGLEFT
 10
0.0
 20
0.0
 30
0.0
  9
$PUCSORGRIGHT
 10
0.0
 20
0.0
 30
0.0
  9
$PUCSORGFRONT
 10
0.0
 20
0.0
 30
0.0
  9
$PUCSORGBACK
 10
0.0
 20
0.0
 30
0.0
  9
$USERI1
 70
     0
  9
$USERI2
 70
     0
  9
$USERI3
 70
     0
  9
$USERI4
 70
     0
  9
$USERI5
 70
     0
  9
$USERR1
 40
0.0
  9
$USERR2
 40
0.0
  9
$USERR3
 40
0.0
  9
$USERR4
 40
0.0
  9
$USERR5
 40
0.0
  9
$WORLDVIEW
 70
     1
  9
$SHADEDGE
 70
     3
  9
$SHADEDIF
 70
    70
  9
$TILEMODE
 70
     1
  9
$MAXACTVP
 70
    64
  9
$PINSBASE
 10
0.0
 20
0.0
 30
0.0
  9
$PLIMCHECK
 70
     0
  9
$PEXTMIN
 10
1.0000000000E+20
 20
1.0000000000E+20
 30
1.0000000000E+20
  9
$PEXTMAX
 10
-1.0000000000E+20
 20
-1.0000000000E+20
 30
-1.0000000000E+20
  9
$PLIMMIN
 10
0.0
 20
0.0
  9
$PLIMMAX
 10
420.0
 20
297.0
  9
$UNITMODE
 70
     0
  9
$VISRETAIN
 70
     1
  9
$PLINEGEN
 70
     0
  9
$PSLTSCALE
 70
     1
  9
$TREEDEPTH
 70
  3020
  9
$CMLSTYLE
  2
Standard
  9
$CMLJUST
 70
     0
  9
$CMLSCALE
 40
20.0
  9
$PROXYGRAPHICS
 70
     1
  9
$MEASUREMENT
 70
     1
  9
$CELWEIGHT
370
    -1
  9
$ENDCAPS
280
     0
  9
$JOINSTYLE
280
     0
  9
$LWDISPLAY
290
     1
  9
$INSUNITS
 70
     4
  9
$HYPERLINKBASE
  1

  9
$STYLESHEET
  1

  9
$XEDIT
290
     1
  9
$CEPSNTYPE
380
     0
  9
$PSTYLEMODE
290
     1
  9
$FINGERPRINTGUID
  2
{d7252685-2e2c-4526-94ce-4930c91a5d0a}
  9
$VERSIONGUID
  2
{FAEB1C32-E019-11D5-929B-00C0DF256EC4}
  9
$EXTNAMES
290
     1
  9
$PSVPSCALE
 40
0.0
  9
$OLESTARTUP
290
     0
  0
ENDSEC
  0
SECTION
  2
CLASSES
  0
CLASS
  1
ACDBDICTIONARYWDFLT
  2
AcDbDictionaryWithDefault
  3
ObjectDBX Classes
 90
        0
280
     0
281
     0
  0
CLASS
  1
VISUALSTYLE
  2
AcDbVisualStyle
  3
ObjectDBX Classes
 90
     4095
280
     0
281
     0
  0
CLASS
  1
MATERIAL
  2
AcDbMaterial
  3
ObjectDBX Classes
 90
     1153
280
     0
281
     0
  0
CLASS
  1
SCALE
  2
AcDbScale
  3
ObjectDBX Classes
 90
     1153
280
     0
281
     0
  0
CLASS
  1
TABLESTYLE
  2
AcDbTableStyle
  3
ObjectDBX Classes
 90
     4095
280
     0
281
     0
  0
CLASS
  1
MLEADERSTYLE
  2
AcDbMLeaderStyle
  3
ACDB_MLEADERSTYLE_CLASS
 90
     4095
280
     0
281
     0
  0
CLASS
  1
SUN
  2
AcDbSun
  3
SCENEOE
 90
     1153
280
     0
281
     0
  0
CLASS
  1
ACDBPLACEHOLDER
  2
AcDbPlaceHolder
  3
ObjectDBX Classes
 90
        0
280
     0
281
     0
  0
CLASS
  1
LAYOUT
  2
AcDbLayout
  3
ObjectDBX Classes
 90
        0
280
     0
281
     0
  0
ENDSEC
  0
SECTION
  2
TABLES
  0
TABLE
  2
VPORT
  5
8
330
0
100
AcDbSymbolTable
 70
     1
  0
VPORT
  5
29
330
8
100
AcDbSymbolTableRecord
100
AcDbViewportTableRecord
  2
*Active
 70
     0
 10
0.0
 20
0.0
 11
1.0
 21
1.0
 12
139.7
 22
107.95
 13
0.0
 23
0.0
 14
10.0
 24
10.0
 15
10.0
 25
10.0
 16
0.0
 26
0.0
 36
1.0
 17
0.0
 27
0.0
 37
0.0
 40
215.9
 41
1.2941176471
 42
50.0
 43
0.0
 44
0.0
 50
0.0
 51
0.0
 71
     0
 72
  2000
 73
     1
 74
     3
 75
     0
 76
     0
 77
     0
 78
     0
281
     0
 65
     1
110
0.0
120
0.0
130
0.0
111
1.0
121
0.0
131
0.0
112
0.0
122
1.0
132
0.0
 79
     0
146
0.0
  0
ENDTAB
  0
TABLE
  2
LTYPE
  5
5
330
0
100
AcDbSymbolTable
 70
     6
  0
LTYPE
  5
14
330
5
100
AcDbSymbolTableRecord
100
AcDbLinetypeTableRecord
  2
ByBlock
 70
     0
  3

 72
    65
 73
     0
 40
0.0
  0
LTYPE
  5
15
330
5
100
AcDbSymbolTableRecord
100
AcDbLinetypeTableRecord
  2
ByLayer
 70
     0
  3

 72
    65
 73
     0
 40
0.0
  0
LTYPE
  5
16
330
5
100
AcDbSymbolTableRecord
100
AcDbLinetypeTableRecord
  2
Continuous
 70
     0
  3
Solid line
 72
    65
 73
     0
 40
0.0
  0
LTYPE
  5
6E
330
5
100
AcDbSymbolTableRecord
100
AcDbLinetypeTableRecord
  2
HIDDEN
 70
     0
  3
Hidden __ __ __ __ __ __ __ __ __ __ __ __ __ __
 72
    65
 73
     2
 40
1.905
 49
1.27
 74
     0
 49
-0.635
 74
     0
  0
LTYPE
  5
6F
330
5
100
AcDbSymbolTableRecord
100
AcDbLinetypeTableRecord
  2
PHANTOM
 70
     0
  3
Phantom ______  __  __  ______  __  __  ______
 72
    65
 73
     6
 40
12.7
 49
6.35
 74
     0
 49
-1.27
 74
     0
 49
1.27
 74
     0
 49
-1.27
 74
     0
 49
1.27
 74
     0
 49
-1.27
 74
     0
  0
LTYPE
  5
70
330
5
100
AcDbSymbolTableRecord
100
AcDbLinetypeTableRecord
  2
CENTER
 70
     0
  3
Center ____ _ ____ _ ____ _ ____ _ ____ _ ____
 72
    65
 73
     4
 40
10.16
 49
6.35
 74
     0
 49
-1.27
 74
     0
 49
1.27
 74
     0
 49
-1.27
 74
     0
  0
LTYPE
  5
71
330
5
100
AcDbSymbolTableRecord
100
AcDbLinetypeTableRecord
  2
CENTERX2
 70
     0
  3
Center (2x) ________  __  ________  __  _____
 72
    65
 73
     4
 40
20.32
 49
12.7
 74
     0
 49
-2.54
 74
     0
 49
2.54
 74
     0
 49
-2.54
 74
     0
  0
LTYPE
  5
72
330
5
100
AcDbSymbolTableRecord
100
AcDbLinetypeTableRecord
  2
DOT2
 70
     0
  3
Dot (.5x) ........................................
 72
    65
 73
     2
 40
0.635
 49
0.0
 74
     0
 49
-0.635
 74
     0
  0
ENDTAB
  0
TABLE
  2
LAYER
  5
2
330
0
100
AcDbSymbolTable
 70
    17
  0
LAYER
  5
10
330
2
100
AcDbSymbolTableRecord
100
AcDbLayerTableRecord
  2
0
 70
     0
 62
     7
  6
Continuous
370
    -3
390
F
  0
LAYER
  5
73
330
2
100
AcDbSymbolTableRecord
100
AcDbLayerTableRecord
  2
FORMAT
 70
     0
 62
     7
  6
Continuous
370
    -3
390
F
  0
LAYER
  5
74
330
2
100
AcDbSymbolTableRecord
100
AcDbLayerTableRecord
  2
YARDIMCI_GEOMETRI
 70
     0
 62
    -6
  6
Continuous
290
     0
370
    -3
390
F
  0
LAYER
  5
75
330
2
100
AcDbSymbolTableRecord
100
AcDbLayerTableRecord
  2
SAYFA_CERCEVESI
 70
     0
 62
     7
  6
Continuous
370
    25
390
F
  0
LAYER
  5
76
330
2
100
AcDbSymbolTableRecord
100
AcDbLayerTableRecord
  2
ANTET
 70
     0
 62
     7
  6
Continuous
370
    -3
390
F
  0
LAYER
  5
77
330
2
100
AcDbSymbolTableRecord
100
AcDbLayerTableRecord
  2
OLCU
 70
     0
 62
   150
  6
Continuous
370
    -3
390
F
  0
LAYER
  5
78
330
2
100
AcDbSymbolTableRecord
100
AcDbLayerTableRecord
  2
METIN
 70
     0
 62
    96
  6
Continuous
370
    -3
390
F
  0
LAYER
  5
79
330
2
100
AcDbSymbolTableRecord
100
AcDbLayerTableRecord
  2
BALON
 70
     0
 62
     5
  6
Continuous
370
    -3
390
F
  0
LAYER
  5
7A
330
2
100
AcDbSymbolTableRecord
100
AcDbLayerTableRecord
  2
VURGU
 70
     0
 62
     7
  6
Continuous
370
    -3
390
F
  0
LAYER
  5
7B
330
2
100
AcDbSymbolTableRecord
100
AcDbLayerTableRecord
  2
SILIK
 70
     0
 62
     7
  6
Continuous
370
    -3
390
F
  0
LAYER
  5
7C
330
2
100
AcDbSymbolTableRecord
100
AcDbLayerTableRecord
  2
MODEL
 70
     0
 62
     7
  6
Continuous
370
    -3
390
F
  0
LAYER
  5
7D
330
2
100
AcDbSymbolTableRecord
100
AcDbLayerTableRecord
  2
DETAYLANDıRMA
 70
     0
 62
   190
  6
Continuous
370
    -3
390
F
  0
LAYER
  5
7E
330
2
100
AcDbSymbolTableRecord
100
AcDbLayerTableRecord
  2
TOLERANS
 70
     0
 62
   230
  6
Continuous
370
    -3
390
F
  0
LAYER
  5
7F
330
2
100
AcDbSymbolTableRecord
100
AcDbLayerTableRecord
  2
MERKEZ_CIZGILERI
 70
     0
 62
    30
  6
Continuous
370
    -3
390
F
  0
LAYER
  5
80
330
2
100
AcDbSymbolTableRecord
100
AcDbLayerTableRecord
  2
KESIT-DETAY_CIZGILERI
 70
     0
 62
     7
  6
Continuous
370
    -3
390
F
  0
LAYER
  5
81
330
2
100
AcDbSymbolTableRecord
100
AcDbLayerTableRecord
  2
\U+041E\U+0421\U+0415\U+0412\U+042B\U+0415
 70
     0
 62
     7
  6
Continuous
370
    -3
390
F
  0
LAYER
  5
82
330
2
100
AcDbSymbolTableRecord
100
AcDbLayerTableRecord
  2
\U+0412\U+041E\U+0414\U+042F\U+041D\U+042B\U+0415_\U+0417\U+041D\U+0410\U+041A\U+0418
 70
     0
 62
    11
  6
Continuous
370
    -3
390
F
  0
ENDTAB
  0
TABLE
  2
STYLE
  5
3
330
0
100
AcDbSymbolTable
 70
     1
  0
STYLE
  5
11
330
3
100
AcDbSymbolTableRecord
100
AcDbTextStyleTableRecord
  2
Standard
 70
     0
 40
0.0
 41
1.0
 50
0.0
 71
     0
 42
3.5
  3
txt
  4

  0
ENDTAB
  0
TABLE
  2
VIEW
  5
6
330
0
100
AcDbSymbolTable
 70
     0
  0
ENDTAB
  0
TABLE
  2
UCS
  5
7
330
0
100
AcDbSymbolTable
 70
     0
  0
ENDTAB
  0
TABLE
  2
APPID
  5
9
330
0
100
AcDbSymbolTable
 70
     1
  0
APPID
  5
12
330
9
100
AcDbSymbolTableRecord
100
AcDbRegAppTableRecord
  2
ACAD
 70
     0
  0
ENDTAB
  0
TABLE
  2
DIMSTYLE
  5
A
330
0
100
AcDbSymbolTable
 70
     1
100
AcDbDimStyleTable
  0
DIMSTYLE
105
27
330
A
100
AcDbSymbolTableRecord
100
AcDbDimStyleTableRecord
  2
ISO-25
 70
     0
 41
2.5
 42
0.625
 43
3.75
 44
1.25
 73
     0
 74
     0
 77
     1
 78
     8
140
2.5
141
2.5
143
0.0393700787
147
0.625
171
     3
172
     1
178
     0
271
     2
272
     2
274
     3
278
    44
283
     0
284
     8
340
11
  0
ENDTAB
  0
TABLE
  2
BLOCK_RECORD
  5
1
330
0
100
AcDbSymbolTable
 70
     3
  0
BLOCK_RECORD
  5
1F
330
1
100
AcDbSymbolTableRecord
100
AcDbBlockTableRecord
  2
*Model_Space
340
22
  0
BLOCK_RECORD
  5
1B
330
1
100
AcDbSymbolTableRecord
100
AcDbBlockTableRecord
  2
*Paper_Space
340
1E
  0
BLOCK_RECORD
  5
23
330
1
100
AcDbSymbolTableRecord
100
AcDbBlockTableRecord
  2
*Paper_Space0
340
26
  0
BLOCK_RECORD
  5
88
330
1
100
AcDbSymbolTableRecord
100
AcDbBlockTableRecord
  2
SW_CENTERMARKSYMBOL_0
340
0
102
{BLKREFS
331
93
102
}
  0
BLOCK_RECORD
  5
9C
330
1
100
AcDbSymbolTableRecord
100
AcDbBlockTableRecord
  2
SW_CENTERMARKSYMBOL_1
340
0
102
{BLKREFS
331
A7
102
}
  0
ENDTAB
  0
ENDSEC
  0
SECTION
  2
BLOCKS
  0
BLOCK
  5
20
330
1F
100
AcDbEntity
  8
0
100
AcDbBlockBegin
  2
*Model_Space
 70
     0
 10
0.0
 20
0.0
 30
0.0
  3
*Model_Space
  1

  0
ENDBLK
  5
21
330
1F
100
AcDbEntity
  8
0
100
AcDbBlockEnd
  0
BLOCK
  5
1C
330
1B
100
AcDbEntity
 67
     1
  8
0
100
AcDbBlockBegin
  2
*Paper_Space
 70
     0
 10
0.0
 20
0.0
 30
0.0
  3
*Paper_Space
  1

  0
ENDBLK
  5
1D
330
1B
100
AcDbEntity
 67
     1
  8
0
100
AcDbBlockEnd
  0
BLOCK
  5
24
330
23
100
AcDbEntity
  8
0
100
AcDbBlockBegin
  2
*Paper_Space0
 70
     0
 10
0.0
 20
0.0
 30
0.0
  3
*Paper_Space0
  1

  0
ENDBLK
  5
25
330
23
100
AcDbEntity
  8
0
100
AcDbBlockEnd
  0
BLOCK
  5
89
330
88
100
AcDbEntity
  8
0
100
AcDbBlockBegin
  2
SW_CENTERMARKSYMBOL_0
 70
     0
 10
0.0
 20
0.0
 30
0.0
  3
SW_CENTERMARKSYMBOL_0
  1

  0
LINE
  5
8B
330
88
100
AcDbEntity
  8
FORMAT
 62
     0
100
AcDbLine
 10
0.0
 20
0.0
 30
0.0
 11
2.5
 21
0.0
 31
0.0
  0
LINE
  5
8C
330
88
100
AcDbEntity
  8
FORMAT
 62
     0
100
AcDbLine
 10
0.0
 20
0.0
 30
0.0
 11
0.0
 21
2.5
 31
0.0
  0
LINE
  5
8D
330
88
100
AcDbEntity
  8
FORMAT
 62
     0
100
AcDbLine
 10
0.0
 20
0.0
 30
0.0
 11
-2.5
 21
0.0
 31
0.0
  0
LINE
  5
8E
330
88
100
AcDbEntity
  8
FORMAT
 62
     0
100
AcDbLine
 10
0.0
 20
0.0
 30
0.0
 11
0.0
 21
-2.5
 31
0.0
  0
LINE
  5
8F
330
88
100
AcDbEntity
  8
FORMAT
 62
     0
100
AcDbLine
 10
5.0
 20
0.0
 30
0.0
 11
127.5
 21
0.0
 31
0.0
  0
LINE
  5
90
330
88
100
AcDbEntity
  8
FORMAT
 62
     0
100
AcDbLine
 10
0.0
 20
5.0
 30
0.0
 11
0.0
 21
127.5
 31
0.0
  0
LINE
  5
91
330
88
100
AcDbEntity
  8
FORMAT
 62
     0
100
AcDbLine
 10
-5.0
 20
0.0
 30
0.0
 11
-127.5
 21
0.0
 31
0.0
  0
LINE
  5
92
330
88
100
AcDbEntity
  8
FORMAT
 62
     0
100
AcDbLine
 10
0.0
 20
-5.0
 30
0.0
 11
0.0
 21
-127.5
 31
0.0
  0
ENDBLK
  5
8A
330
88
100
AcDbEntity
  8
0
100
AcDbBlockEnd
  0
BLOCK
  5
9D
330
9C
100
AcDbEntity
  8
0
100
AcDbBlockBegin
  2
SW_CENTERMARKSYMBOL_1
 70
     0
 10
0.0
 20
0.0
 30
0.0
  3
SW_CENTERMARKSYMBOL_1
  1

  0
LINE
  5
9F
330
9C
100
AcDbEntity
  8
FORMAT
 62
     0
100
AcDbLine
 10
0.0
 20
0.0
 30
0.0
 11
0.0
 21
2.5
 31
0.0
  0
LINE
  5
A0
330
9C
100
AcDbEntity
  8
FORMAT
 62
     0
100
AcDbLine
 10
0.0
 20
0.0
 30
0.0
 11
-2.5
 21
0.0
 31
0.0
  0
LINE
  5
A1
330
9C
100
AcDbEntity
  8
FORMAT
 62
     0
100
AcDbLine
 10
0.0
 20
0.0
 30
0.0
 11
0.0
 21
-2.5
 31
0.0
  0
LINE
  5
A2
330
9C
100
AcDbEntity
  8
FORMAT
 62
     0
100
AcDbLine
 10
0.0
 20
0.0
 30
0.0
 11
2.5
 21
0.0
 31
0.0
  0
LINE
  5
A3
330
9C
100
AcDbEntity
  8
FORMAT
 62
     0
100
AcDbLine
 10
0.0
 20
5.0
 30
0.0
 11
0.0
 21
82.5
 31
0.0
  0
LINE
  5
A4
330
9C
100
AcDbEntity
  8
FORMAT
 62
     0
100
AcDbLine
 10
-5.0
 20
0.0
 30
0.0
 11
-82.5
 21
0.0
 31
0.0
  0
LINE
  5
A5
330
9C
100
AcDbEntity
  8
FORMAT
 62
     0
100
AcDbLine
 10
0.0
 20
-5.0
 30
0.0
 11
0.0
 21
-82.5
 31
0.0
  0
LINE
  5
A6
330
9C
100
AcDbEntity
  8
FORMAT
 62
     0
100
AcDbLine
 10
5.0
 20
0.0
 30
0.0
 11
82.5
 21
0.0
 31
0.0
  0
ENDBLK
  5
9E
330
9C
100
AcDbEntity
  8
0
100
AcDbBlockEnd
  0
ENDSEC
  0
SECTION
  2
ENTITIES
  0
LINE
  5
83
330
1F
100
AcDbEntity
  8
0
  6
Continuous
 62
     7
370
    25
100
AcDbLine
 10
60.2388293534
 20
57.0651617336
 30
0.0
 11
60.2388293534
 21
-113.8167280268
 31
0.0
  0
LINE
  5
84
330
1F
100
AcDbEntity
  8
0
  6
Continuous
 62
     7
370
    25
100
AcDbLine
 10
220.2388257771
 20
-113.8167280268
 30
0.0
 11
220.2388257771
 21
57.0912983704
 31
0.0
  0
CIRCLE
  5
85
330
1F
100
AcDbEntity
  8
0
  6
Continuous
 62
     7
370
    25
100
AcDbCircle
 10
140.2388275653
 20
153.1832617212
 30
0.0
 40
110.2
  0
CIRCLE
  5
86
330
1F
100
AcDbEntity
  8
0
  6
Continuous
 62
     7
370
    25
100
AcDbCircle
 10
140.2388275653
 20
153.1832617212
 30
0.0
 40
125.0
  0
LINE
  5
87
330
1F
100
AcDbEntity
  8
0
  6
Continuous
 62
     7
370
    25
100
AcDbLine
 10
220.2388257771
 20
-113.8167280268
 30
0.0
 11
60.2388293534
 21
-113.8167280268
 31
0.0
  0
INSERT
  5
93
330
1F
100
AcDbEntity
  8
FORMAT
 62
     7
100
AcDbBlockReference
  2
SW_CENTERMARKSYMBOL_0
 10
140.2388275653
 20
153.1832617212
 30
0.0
  0
LINE
  5
94
330
1F
100
AcDbEntity
  8
0
  6
Continuous
 62
     7
370
    25
100
AcDbLine
 10
265.2388275653
 20
419.9224257033
 30
0.0
 11
265.2388275653
 21
1009.9223994773
 31
0.0
  0
LINE
  5
95
330
1F
100
AcDbEntity
  8
0
  6
Continuous
 62
     7
370
    25
100
AcDbLine
 10
15.2388275653
 20
1009.9223994773
 30
0.0
 11
15.2388275653
 21
419.9224257033
 31
0.0
  0
CIRCLE
  5
96
330
1F
100
AcDbEntity
  8
0
  6
Continuous
 62
     7
370
    25
100
AcDbCircle
 10
140.2388275653
 20
714.9224125903
 30
0.0
 40
70.5
  0
CIRCLE
  5
97
330
1F
100
AcDbEntity
  8
0
  6
Continuous
 62
     7
370
    25
100
AcDbCircle
 10
140.2388275653
 20
714.9224125903
 30
0.0
 40
80.0
  0
LINE
  5
98
330
1F
100
AcDbEntity
  8
0
  6
Continuous
 62
     7
370
    25
100
AcDbLine
 10
140.2388275653
 20
1009.9223994773
 30
0.0
 11
265.2388275653
 21
1009.9223994773
 31
0.0
  0
LINE
  5
99
330
1F
100
AcDbEntity
  8
0
  6
Continuous
 62
     7
370
    25
100
AcDbLine
 10
15.2388275653
 20
1009.9223994773
 30
0.0
 11
140.2388275653
 21
1009.9223994773
 31
0.0
  0
LINE
  5
9A
330
1F
100
AcDbEntity
  8
0
  6
Continuous
 62
     7
370
    25
100
AcDbLine
 10
140.2388275653
 20
419.9224257033
 30
0.0
 11
265.2388275653
 21
419.9224257033
 31
0.0
  0
LINE
  5
9B
330
1F
100
AcDbEntity
  8
0
  6
Continuous
 62
     7
370
    25
100
AcDbLine
 10
15.2388275653
 20
419.9224257033
 30
0.0
 11
140.2388275653
 21
419.9224257033
 31
0.0
  0
INSERT
  5
A7
330
1F
100
AcDbEntity
  8
FORMAT
100
AcDbBlockReference
  2
SW_CENTERMARKSYMBOL_1
 10
140.2388275653
 20
714.9224125903
 30
0.0
  0
LINE
  5
A8
330
1F
100
AcDbEntity
  8
0
  6
Continuous
 62
     7
370
    25
100
AcDbLine
 10
-149.9843681105
 20
278.1832617212
 30
0.0
 11
-739.9843418844
 21
278.1832617212
 31
0.0
  0
LINE
  5
A9
330
1F
100
AcDbEntity
  8
0
  6
Continuous
 62
     7
370
    25
100
AcDbLine
 10
-365.0289261587
 20
28.1832617212
 30
0.0
 11
-149.9843681105
 21
28.1832617212
 31
0.0
  0
LINE
  5
AA
330
1F
100
AcDbEntity
  8
0
  6
Continuous
 62
     7
370
    25
100
AcDbLine
 10
-739.9843418844
 20
28.1832617212
 30
0.0
 11
-524.9843532093
 21
28.1832617212
 31
0.0
  0
LINE
  5
AB
330
1F
100
AcDbEntity
  8
0
  6
Continuous
 62
     7
370
    25
100
AcDbLine
 10
-524.9843532093
 20
28.1832617212
 30
0.0
 11
-524.9843532093
 21
-113.8167280268
 31
0.0
  0
LINE
  5
AC
330
1F
100
AcDbEntity
  8
0
  6
Continuous
 62
     7
370
    25
100
AcDbLine
 10
-364.9843567856
 20
-113.8167280268
 30
0.0
 11
-364.9843567856
 21
28.2118048954
 31
0.0
  0
SPLINE
  5
AD
330
1F
100
AcDbEntity
  8
0
  6
Continuous
 62
     7
370
    25
100
AcDbSpline
210
0.0
220
0.0
230
1.0
 70
     8
 71
     3
 72
    48
 73
    44
 74
     0
 42
0.000000001
 43
0.00000001
 40
0.0
 40
0.0
 40
0.0
 40
0.0
 40
0.0064214010163638
 40
0.030046473348294
 40
0.0536723528469328
 40
0.0754118496939756
 40
0.0971525507636823
 40
0.1194421781456416
 40
0.1417333636127302
 40
0.1651336254756751
 40
0.1885355197344276
 40
0.2124499200153285
 40
0.2363654701612637
 40
0.263310436551991
 40
0.2902556846637925
 40
0.3178837340131612
 40
0.3455095499649899
 40
0.3687555815418216
 40
0.3919990389733191
 40
0.4158593444679422
 40
0.4397158230535945
 40
0.463009767073471
 40
0.4863012748659236
 40
0.5105212300620758
 40
0.5347420861819697
 40
0.5548220626295948
 40
0.5749037912148012
 40
0.5954778928212724
 40
0.6160540631408945
 40
0.643035582454076
 40
0.6700211539837726
 40
0.6977778539672911
 40
0.7255359919112048
 40
0.7528769456348967
 40
0.7802170441171424
 40
0.8083006679372442
 40
0.8363814984969209
 40
0.8643759694125237
 40
0.8923666826136938
 40
0.9214853633423934
 40
0.9506000921614493
 40
0.9751901693078228
 40
1.0
 40
1.0
 40
1.0
 40
1.0
 10
-365.0289261587387
 20
28.21181234599858
 30
0.0
 10
-365.0159004163269
 20
28.20346349494357
 30
0.0
 10
-364.9549514705715
 20
28.16439826134816
 30
0.0
 10
-365.3087632644377
 20
28.39116072907251
 30
0.0
 10
-366.0845495549764
 20
28.88519363605123
 30
0.0
 10
-367.2856680623669
 20
29.6450683484073
 30
0.0
 10
-368.8246178579648
 20
30.60789776346319
 30
0.0
 10
-370.7438409864276
 20
31.79259057264514
 30
0.0
 10
-373.0664135422023
 20
33.20048519803174
 30
0.0
 10
-375.779994138177
 20
34.80956641238657
 30
0.0
 10
-378.9022225172045
 20
36.6096331974524
 30
0.0
 10
-382.3792150425264
 20
38.54802078911089
 30
0.0
 10
-386.3591845582167
 20
40.67711943611957
 30
0.0
 10
-390.847551786089
 20
42.95706357241248
 30
0.0
 10
-395.9130970759281
 20
45.3606716304451
 30
0.0
 10
-401.3750396955431
 20
47.7421073000849
 30
0.0
 10
-406.9173135192462
 20
49.9108879545113
 30
0.0
 10
-412.418932437716
 20
51.80671650189339
 30
0.0
 10
-417.8606109664073
 20
53.42823092883837
 30
0.0
 10
-423.5566114523968
 20
54.82923008968498
 30
0.0
 10
-429.4365153390348
 20
55.94567497787583
 30
0.0
 10
-435.4096612474843
 20
56.71967794060947
 30
0.0
 10
-441.5036138014488
 20
57.14020623286969
 30
0.0
 10
-447.7140819300456
 20
57.16383328413088
 30
0.0
 10
-453.6199508653199
 20
56.80536278703731
 30
0.0
 10
-459.0933102735999
 20
56.14815202984687
 30
0.0
 10
-464.1630166314199
 20
55.28213626249615
 30
0.0
 10
-469.1509304609737
 20
54.18121287861175
 30
0.0
 10
-474.5398369247883
 20
52.73935278843754
 30
0.0
 10
-480.2102726898432
 20
50.932059984543
 30
0.0
 10
-486.1203179609144
 20
48.74299050047424
 30
0.0
 10
-491.7536658871309
 20
46.3929993879287
 30
0.0
 10
-497.0563357950361
 20
43.95952908480974
 30
0.0
 10
-501.96370291541
 20
41.53125640887112
 30
0.0
 10
-506.5041954727666
 20
39.14273730485296
 30
0.0
 10
-510.6639387204348
 20
36.84247895050714
 30
0.0
 10
-514.3972884514499
 20
34.69047469740504
 30
0.0
 10
-517.6295964178108
 20
32.76564804350173
 30
0.0
 10
-520.3650124557548
 20
31.09296427428056
 30
0.0
 10
-522.5373055937416
 20
29.73826350478625
 30
0.0
 10
-523.992268202659
 20
28.81670627057528
 30
0.0
 10
-524.8349963451844
 20
28.27897276298531
 30
0.0
 10
-524.9344201603047
 20
28.21525987651854
 30
0.0
 10
-524.9843532093292
 20
28.18326172115114
 30
0.0
  0
LINE
  5
AE
330
1F
100
AcDbEntity
  8
0
  6
Continuous
 62
     7
370
    25
100
AcDbLine
 10
-739.9843418844
 20
28.1832617212
 30
0.0
 11
-739.9843418844
 21
278.1832617212
 31
0.0
  0
LINE
  5
AF
330
1F
100
AcDbEntity
  8
0
  6
Continuous
 62
     7
370
    25
100
AcDbLine
 10
-149.9843681105
 20
28.1832617212
 30
0.0
 11
-149.9843681105
 21
278.1832617212
 31
0.0
  0
LINE
  5
B0
330
1F
100
AcDbEntity
  8
0
  6
Continuous
 62
     7
370
    25
100
AcDbLine
 10
-364.9843567856
 20
-113.8167280268
 30
0.0
 11
-524.9843532093
 21
-113.8167280268
 31
0.0
  0
LINE
  5
B1
330
1F
100
AcDbEntity
  8
0
  6
Continuous
 62
     7
370
    25
100
AcDbLine
 10
794.4921415097
 20
28.1832617212
 30
0.0
 11
1009.4921301848
 21
28.1832617212
 31
0.0
  0
LINE
  5
B2
330
1F
100
AcDbEntity
  8
0
  6
Continuous
 62
     7
370
    25
100
AcDbLine
 10
419.4921564109
 20
28.1832617212
 30
0.0
 11
634.5368038661
 21
28.1832617212
 31
0.0
  0
LINE
  5
B3
330
1F
100
AcDbEntity
  8
0
  6
Continuous
 62
     7
370
    25
100
AcDbLine
 10
1009.4921301848
 20
278.1832617212
 30
0.0
 11
419.4921564109
 21
278.1832617212
 31
0.0
  0
LINE
  5
B4
330
1F
100
AcDbEntity
  8
0
  6
Continuous
 62
     7
370
    25
100
AcDbLine
 10
634.492145086
 20
28.2118272472
 30
0.0
 11
634.492145086
 21
-113.8167280268
 31
0.0
  0
LINE
  5
B5
330
1F
100
AcDbEntity
  8
0
  6
Continuous
 62
     7
370
    25
100
AcDbLine
 10
794.4921415097
 20
-113.8167280268
 30
0.0
 11
794.4921415097
 21
28.1832617212
 31
0.0
  0
SPLINE
  5
B6
330
1F
100
AcDbEntity
  8
0
  6
Continuous
 62
     7
370
    25
100
AcDbSpline
210
0.0
220
0.0
230
1.0
 70
     8
 71
     3
 72
    49
 73
    45
 74
     0
 42
0.000000001
 43
0.00000001
 40
0.0
 40
0.0
 40
0.0
 40
0.0
 40
0.0229789070569155
 40
0.0461383643598316
 40
0.0698554248585051
 40
0.0937577586882612
 40
0.1167331917154446
 40
0.1398565413460053
 40
0.163413781144391
 40
0.1871077754690305
 40
0.2120203261471291
 40
0.2370729278446243
 40
0.2625433803813502
 40
0.2881516262676189
 40
0.3164824019039549
 40
0.3450117792993184
 40
0.3742209092589267
 40
0.403701113960791
 40
0.4244034967957161
 40
0.4452316872886696
 40
0.4664882410624496
 40
0.4879076476569972
 40
0.5086149893296172
 40
0.5294815976273181
 40
0.5508362491395602
 40
0.5723503919266311
 40
0.5925736133063607
 40
0.6129079360589023
 40
0.6335560949832592
 40
0.6542993695428795
 40
0.6784517910934929
 40
0.7027313104148205
 40
0.7273876833098033
 40
0.7521686200294461
 40
0.7805573134289299
 40
0.8091464042559752
 40
0.8384100107686734
 40
0.8679313374465183
 40
0.8907203239498893
 40
0.9136535866876522
 40
0.9370671735400307
 40
0.9606586321161578
 40
0.9834519296846201
 40
1.0
 40
1.0
 40
1.0
 40
1.0
 10
794.4921415097147
 20
28.18326172115117
 30
0.0
 10
794.4493318461745
 20
28.21068385097393
 30
0.0
 10
794.3633761543024
 20
28.26574357222837
 30
0.0
 10
793.6636085628786
 20
28.71253244016824
 30
0.0
 10
792.5352367003626
 20
29.42803114570999
 30
0.0
 10
790.9587776211769
 20
30.41721505080989
 30
0.0
 10
788.986604713077
 20
31.63706888701
 30
0.0
 10
786.6421477376408
 20
33.06142208092569
 30
0.0
 10
783.9060707351954
 20
34.68678866321228
 30
0.0
 10
780.7422394235683
 20
36.51482080772542
 30
0.0
 10
777.1596710007888
 20
38.51496979230843
 30
0.0
 10
773.1418206477354
 20
40.66435184756724
 30
0.0
 10
768.7508559850851
 20
42.89402903275566
 30
0.0
 10
763.83472944624
 20
45.2357340593402
 30
0.0
 10
758.3768544478392
 20
47.62986772686513
 30
0.0
 10
752.3116354954215
 20
50.01372072912713
 30
0.0
 10
745.8053448072624
 20
52.22866765600254
 30
0.0
 10
739.573141060559
 20
53.97414362201755
 30
0.0
 10
733.7943738968102
 20
55.25919987903005
 30
0.0
 10
728.5551396729915
 20
56.15997549945398
 30
0.0
 10
723.1525302578004
 20
56.79838552061074
 30
0.0
 10
717.6921935837598
 20
57.13486085141335
 30
0.0
 10
712.2408766969068
 20
57.16052385955245
 30
0.0
 10
706.8125478318755
 20
56.88079244178775
 30
0.0
 10
701.3744456764549
 20
56.29478436111634
 30
0.0
 10
696.089676100847
 20
55.43348996601566
 30
0.0
 10
691.0152488840874
 20
54.34706911672122
 30
0.0
 10
686.1519247349535
 20
53.07792229438336
 30
0.0
 10
681.4064626877525
 20
51.62973776663361
 30
0.0
 10
676.5512707314657
 20
49.94774103817845
 30
0.0
 10
671.6481126857202
 20
48.04708785781372
 30
0.0
 10
666.7323206044609
 20
45.94590426451563
 30
0.0
 10
662.055109691108
 20
43.77888606982566
 30
0.0
 10
657.4302400497107
 20
41.48778410603504
 30
0.0
 10
652.9421785607353
 20
39.12764973218684
 30
0.0
 10
648.654960719708
 20
36.7539849883383
 30
0.0
 10
644.8048683249572
 20
34.53052099097499
 30
0.0
 10
641.7164060363652
 20
32.68520606144809
 30
0.0
 10
639.3175804529121
 20
31.21853349441596
 30
0.0
 10
637.4967523344468
 20
30.08674431042597
 30
0.0
 10
636.0634033086575
 20
29.18415730251039
 30
0.0
 10
635.085518589688
 20
28.56264650593868
 30
0.0
 10
634.5517181287003
 20
28.22140843117291
 30
0.0
 10
634.5412197678129
 20
28.21466934448449
 30
0.0
 10
634.5368038660913
 20
28.21183469774037
 30
0.0
  0
LINE
  5
B7
330
1F
100
AcDbEntity
  8
0
  6
Continuous
 62
     7
370
    25
100
AcDbLine
 10
1009.4921301848
 20
278.1832617212
 30
0.0
 11
1009.4921301848
 21
28.1832617212
 31
0.0
  0
LINE
  5
B8
330
1F
100
AcDbEntity
  8
0
  6
Continuous
 62
     7
370
    25
100
AcDbLine
 10
419.4921564109
 20
278.1832617212
 30
0.0
 11
419.4921564109
 21
28.1832617212
 31
0.0
  0
LINE
  5
B9
330
1F
100
AcDbEntity
  8
0
  6
Continuous
 62
     7
370
    25
100
AcDbLine
 10
794.4921415097
 20
-113.8167280268
 30
0.0
 11
634.492145086
 21
-113.8167280268
 31
0.0
  0
LINE
  5
BA
330
1F
100
AcDbEntity
  8
0
  6
Continuous
 62
     7
370
    25
100
AcDbLine
 10
15.2388275653
 20
-249.6689341051
 30
0.0
 11
15.2388275653
 21
-839.6689078791
 31
0.0
  0
LINE
  5
BB
330
1F
100
AcDbEntity
  8
0
  6
Continuous
 62
     7
370
    25
100
AcDbLine
 10
265.2388275653
 20
-839.6689078791
 30
0.0
 11
265.2388275653
 21
-249.6689341051
 31
0.0
  0
LINE
  5
BC
330
1F
100
AcDbEntity
  8
0
  6
Continuous
 62
     7
370
    25
100
AcDbLine
 10
265.2388275653
 20
-839.6689078791
 30
0.0
 11
15.2388275653
 21
-839.6689078791
 31
0.0
  0
LINE
  5
BD
330
1F
100
AcDbEntity
  8
0
  6
Continuous
 62
     7
370
    25
100
AcDbLine
 10
265.2388275653
 20
-249.6689341051
 30
0.0
 11
15.2388275653
 21
-249.6689341051
 31
0.0
  0
LINE
  5
BE
330
1F
100
AcDbEntity
  8
0
  6
Continuous
 62
     7
370
    25
100
AcDbLine
 10
976.8876287189
 20
-479.1036517441
 30
0.0
 11
559.6946463635
 21
-238.263269462
 31
0.0
  0
LINE
  5
BF
330
1F
100
AcDbEntity
  8
0
  6
Continuous
 62
     7
370
    25
100
AcDbLine
 10
434.7048058933
 20
-454.7754817102
 30
0.0
 11
625.7962173055
 21
-565.0902054036
 31
0.0
  0
LINE
  5
C0
330
1F
100
AcDbEntity
  8
0
  6
Continuous
 62
     7
370
    25
100
AcDbLine
 10
785.7962199409
 20
-657.4562408587
 30
0.0
 11
851.8977882487
 21
-695.6158639923
 31
0.0
  0
LINE
  5
C1
330
1F
100
AcDbEntity
  8
0
  6
Continuous
 62
     7
370
    25
100
AcDbLine
 10
625.7962199396
 20
-557.9529031989
 30
0.0
 11
625.7962199396
 21
-684.9559551295
 31
0.0
  0
LINE
  5
C2
330
1F
100
AcDbEntity
  8
0
  6
Continuous
 62
     7
370
    25
100
AcDbLine
 10
785.7962146726
 20
-684.9559551295
 30
0.0
 11
785.7962146726
 21
-557.9523739168
 31
0.0
  0
SPLINE
  5
C3
330
1F
100
AcDbEntity
  8
0
  6
Continuous
 62
     7
370
    25
100
AcDbSpline
210
0.0
220
0.0
230
1.0
 70
     8
 71
     3
 72
    18
 73
    14
 74
     0
 42
0.000000001
 43
0.00000001
 40
0.0
 40
0.0
 40
0.0
 40
0.0
 40
0.0922234439224326
 40
0.1862876492476672
 40
0.2803564698723043
 40
0.3762859907195708
 40
0.4684954919864461
 40
0.5621654540798724
 40
0.655842720364559
 40
0.750936092363695
 40
0.8509200130408513
 40
0.9523026724195044
 40
1.0
 40
1.0
 40
1.0
 40
1.0
 10
649.2276760755802
 20
-536.3508444698883
 30
0.0
 10
647.8530843430685
 20
-537.1569384401663
 30
0.0
 10
645.0764643033717
 20
-538.7852158543355
 30
0.0
 10
641.337304302147
 20
-541.1512724102101
 30
0.0
 10
637.9108914857068
 20
-543.46697413522
 30
0.0
 10
634.9226339551466
 20
-545.6695232953956
 30
0.0
 10
632.3528559473052
 20
-547.768978843012
 30
0.0
 10
630.2184336122921
 20
-549.7526817934679
 30
0.0
 10
628.4855128169793
 20
-551.6609728205518
 30
0.0
 10
627.1425508958287
 20
-553.5207757737138
 30
0.0
 10
626.245609753852
 20
-555.3438745570985
 30
0.0
 10
625.803763714817
 20
-556.8228318539552
 30
0.0
 10
625.8429611204205
 20
-557.6789237257593
 30
0.0
 10
625.8555021162545
 20
-557.952825644329
 30
0.0
  0
SPLINE
  5
C4
330
1F
100
AcDbEntity
  8
0
  6
Continuous
 62
     7
370
    25
100
AcDbSpline
210
0.0
220
0.0
230
1.0
 70
     8
 71
     3
 72
    37
 73
    33
 74
     0
 42
0.000000001
 43
0.00000001
 40
0.0
 40
0.0
 40
0.0
 40
0.0
 40
0.0187170334483286
 40
0.0550520109657136
 40
0.0913858740895692
 40
0.1283030488667601
 40
0.1591744199629687
 40
0.1905274213819652
 40
0.2218760446432715
 40
0.2537735918361145
 40
0.2846573825694871
 40
0.3162845695759232
 40
0.3479103546889841
 40
0.3803366667142023
 40
0.4069958326669061
 40
0.4340736048930045
 40
0.461154089999842
 40
0.4886336481862663
 40
0.5244372355983659
 40
0.5608958894504199
 40
0.5973582408484407
 40
0.6344492401196294
 40
0.6707500600164098
 40
0.707277262207128
 40
0.7445425518423952
 40
0.7820810819709432
 40
0.8192021857365853
 40
0.8566463134185037
 40
0.8952099383725594
 40
0.9342062920183237
 40
0.9671036825734824
 40
1.0
 40
1.0
 40
1.0
 40
1.0
 10
785.7291669391047
 20
-557.9524484300175
 30
0.0
 10
785.7408443728258
 20
-556.9577956288834
 30
0.0
 10
785.7751909593741
 20
-554.0322445758134
 30
0.0
 10
785.2357907887131
 20
-549.1661169578297
 30
0.0
 10
784.1391843808615
 20
-543.4033797951685
 30
0.0
 10
782.5364743922306
 20
-538.0548779100927
 30
0.0
 10
780.5433368260001
 20
-533.1406921097456
 30
0.0
 10
778.2451289724014
 20
-528.7080422963264
 30
0.0
 10
775.4996682173359
 20
-524.493111560988
 30
0.0
 10
772.3441771205559
 20
-520.6303498376559
 30
0.0
 10
768.7708008232999
 20
-517.1477619054053
 30
0.0
 10
764.8201808462413
 20
-514.1240065088247
 30
0.0
 10
760.4452398953918
 20
-511.5496895605165
 30
0.0
 10
755.9894231661016
 20
-509.6226491474562
 30
0.0
 10
751.5329755681013
 20
-508.2421730018976
 30
0.0
 10
747.1896425317389
 20
-507.3236482663471
 30
0.0
 10
742.6654457088757
 20
-506.758218894907
 30
0.0
 10
737.5323744105165
 20
-506.5132329591116
 30
0.0
 10
731.7357277058707
 20
-506.6899471679007
 30
0.0
 10
725.2955325177218
 20
-507.3754966156802
 30
0.0
 10
718.6873024026046
 20
-508.5081509759966
 30
0.0
 10
712.0224134108319
 20
-510.0234804781194
 30
0.0
 10
705.3132794500119
 20
-511.8704607945228
 30
0.0
 10
698.5785336598517
 20
-514.0034045509619
 30
0.0
 10
691.7821540072755
 20
-516.4071358832252
 30
0.0
 10
685.0002493086904
 20
-519.0329557835934
 30
0.0
 10
678.3022058127808
 20
-521.8305768013436
 30
0.0
 10
671.6912040990562
 20
-524.7810001949792
 30
0.0
 10
665.1846123254464
 20
-527.8680281684467
 30
0.0
 10
659.2260994649758
 20
-530.8715293421441
 30
0.0
 10
653.8636321304468
 20
-533.718250621856
 30
0.0
 10
650.7729779571583
 20
-535.4733227292487
 30
0.0
 10
649.2276760755802
 20
-536.3508444698883
 30
0.0
  0
LWPOLYLINE
  5
C5
330
1F
100
AcDbEntity
  8
0
  6
Continuous
 62
     7
370
    25
100
AcDbPolyline
 90
      119
 70
   128
 43
0.0
 10
497.1997261284
 20
-448.5869770718
 10
501.9039462956
 20
-445.7266302813
 10
506.5948315952
 20
-442.5850664844
 10
511.2590863426
 20
-439.1711900244
 10
515.8834872935
 20
-435.4946908096
 10
520.454926778
 20
-431.5659768259
 10
524.9604485914
 20
-427.3961899204
 10
529.3872769703
 20
-422.9971464877
 10
533.7228679589
 20
-418.381319984
 10
537.9549304825
 20
-413.5617922596
 10
542.0714684943
 20
-408.5522292279
 10
546.0608099514
 20
-403.3668276359
 10
549.911651596
 20
-398.0202831287
 10
553.6130773943
 20
-392.5277491867
 10
557.1545875126
 20
-386.9048082301
 10
560.526151001
 20
-381.1673864525
 10
563.7182110616
 20
-375.3317507793
 10
566.7217166587
 20
-369.4144419501
 10
569.5281541289
 20
-363.4322380191
 10
572.1295735228
 20
-357.4020843956
 10
574.5185886053
 20
-351.3410908015
 10
576.6884400755
 20
-345.2664278545
 10
578.6329692253
 20
-339.1953148987
 10
580.3466706225
 20
-333.1449622134
 10
581.824676306
 20
-327.1325253848
 10
583.0628084697
 20
-321.1750399105
 10
584.0575531199
 20
-315.2893953416
 10
584.8060864178
 20
-309.492275969
 10
585.3062904843
 20
-303.800115197
 10
585.5567481315
 20
-298.2290453525
 10
585.5567481315
 20
-292.7948596619
 10
585.3062904843
 20
-287.5129620617
 10
584.8060864178
 20
-282.398324612
 10
584.0575531199
 20
-277.4654433893
 10
583.0628084697
 20
-272.7283065468
 10
581.824676306
 20
-268.2003380406
 10
580.3466706225
 20
-263.894370251
 10
578.6329692253
 20
-259.8226150833
 10
576.6884400755
 20
-255.9966076953
 10
574.5185886053
 20
-252.42720193
 10
572.1295735228
 20
-249.1245064381
 10
569.5281541289
 20
-246.0978877148
 10
566.7217166587
 20
-243.3559275163
 10
563.7182110616
 20
-240.9063924358
 10
560.526151001
 20
-238.7562308611
 10
557.1545875126
 20
-236.9115334282
 10
553.6130773943
 20
-235.3775330187
 10
549.911651596
 20
-234.1585743377
 10
546.0608099514
 20
-233.2581169558
 10
542.0714684943
 20
-232.6787109689
 10
537.9549304825
 20
-232.4220015583
 10
533.7228679589
 20
-232.4887092171
 10
529.3872769703
 20
-232.8786495181
 10
524.9604485914
 20
-233.5907133387
 10
520.454926778
 20
-234.6228911921
 10
515.8834872935
 20
-235.9722488903
 10
511.2590863426
 20
-237.6349693648
 10
506.5948315952
 20
-239.6063268083
 10
501.9039462956
 20
-241.8807438959
 10
497.1997261284
 20
-244.4517741004
 10
492.4955059611
 20
-247.3121208909
 10
487.8046206616
 20
-250.4536846878
 10
483.1403659141
 20
-253.8675611477
 10
478.5159649632
 20
-257.5440603626
 10
473.9445254787
 20
-261.4727743463
 10
469.4390036653
 20
-265.6425612518
 10
465.0121752864
 20
-270.0416046845
 10
460.6765842978
 20
-274.6574311881
 10
456.4445217743
 20
-279.4769589126
 10
452.3279837625
 20
-284.4865219443
 10
448.3386423053
 20
-289.6719235363
 10
444.4878006607
 20
-295.0184680434
 10
440.7863748624
 20
-300.5110019855
 10
437.2448647441
 20
-306.1339429421
 10
433.8733012557
 20
-311.8713647197
 10
430.6812411951
 20
-317.7070003929
 10
427.677735598
 20
-323.6243092221
 10
424.8712981279
 20
-329.6065131531
 10
422.2698787339
 20
-335.6366667766
 10
419.8808636514
 20
-341.6976603707
 10
417.7110121812
 20
-347.7723233176
 10
415.7664830315
 20
-353.8434362735
 10
414.0527816343
 20
-359.8937889588
 10
412.5747759507
 20
-365.9062257874
 10
411.3366437871
 20
-371.8637112617
 10
410.3418991369
 20
-377.7493558306
 10
409.593365839
 20
-383.5464752032
 10
409.0931617725
 20
-389.2386359752
 10
408.8427041252
 20
-394.8097058197
 10
408.8427041252
 20
-400.2438915103
 10
409.0931617725
 20
-405.5257891105
 10
409.593365839
 20
-410.6404265602
 10
410.3418991369
 20
-415.5733077829
 10
411.3366437871
 20
-420.3104446253
 10
412.5747759507
 20
-424.8384131316
 10
414.0527816343
 20
-429.1443809212
 10
415.7664830315
 20
-433.2161360889
 10
417.7110121812
 20
-437.0421434769
 10
419.8808636514
 20
-440.6115492422
 10
422.2698787339
 20
-443.9142447341
 10
424.8712981279
 20
-446.9408634574
 10
427.677735598
 20
-449.6828236559
 10
430.6812411951
 20
-452.1323587364
 10
433.8733012557
 20
-454.2825203111
 10
437.2448647441
 20
-456.127217744
 10
440.7863748624
 20
-457.6612181535
 10
444.4878006607
 20
-458.8801768344
 10
448.3386423053
 20
-459.7806342163
 10
452.3279837625
 20
-460.3600402033
 10
456.4445217743
 20
-460.6167496139
 10
460.6765842978
 20
-460.5500419551
 10
465.0121752864
 20
-460.1601016541
 10
469.4390036653
 20
-459.4480378335
 10
473.9445254787
 20
-458.4158599801
 10
478.5159649632
 20
-457.0665022819
 10
483.1403659141
 20
-455.4037818074
 10
487.8046206616
 20
-453.4324243639
 10
492.4955059611
 20
-451.1580072763
 10
497.1997261284
 20
-448.5869770718
  0
LWPOLYLINE
  5
C6
330
1F
100
AcDbEntity
  8
0
  6
Continuous
 62
     7
370
    25
100
AcDbPolyline
 90
       46
 70
   128
 43
0.0
 10
914.3927084838
 20
-689.4273593539
 10
919.0969286511
 20
-686.5670125634
 10
923.7878139506
 20
-683.4254487665
 10
928.4520686981
 20
-680.0115723066
 10
933.076469649
 20
-676.3350730917
 10
937.6479091335
 20
-672.406359108
 10
942.1534309469
 20
-668.2365722025
 10
946.5802593258
 20
-663.8375287698
 10
950.9158503143
 20
-659.2217022662
 10
955.1479128379
 20
-654.4021745417
 10
959.2644508497
 20
-649.39261151
 10
963.2537923069
 20
-644.207209918
 10
967.1046339515
 20
-638.8606654109
 10
970.8060597498
 20
-633.3681314688
 10
974.3475698681
 20
-627.7451905122
 10
977.7191333565
 20
-622.0077687346
 10
980.9111934171
 20
-616.1721330614
 10
983.9146990142
 20
-610.2548242322
 10
986.7211364843
 20
-604.2726203012
 10
989.3225558782
 20
-598.2424666777
 10
991.7115709607
 20
-592.1814730836
 10
993.881422431
 20
-586.1068101367
 10
995.8259515807
 20
-580.0356971808
 10
997.5396529779
 20
-573.9853444955
 10
999.0176586615
 20
-567.9729076669
 10
1000.2557908251
 20
-562.0154221926
 10
1001.2505354753
 20
-556.1297776237
 10
1001.9990687732
 20
-550.3326582511
 10
1002.4992728397
 20
-544.6404974792
 10
1002.749730487
 20
-539.0694276346
 10
1002.749730487
 20
-533.635241944
 10
1002.4992728397
 20
-528.3533443438
 10
1001.9990687732
 20
-523.2387068941
 10
1001.2505354753
 20
-518.3058256714
 10
1000.2557908251
 20
-513.568688829
 10
999.0176586615
 20
-509.0407203227
 10
997.5396529779
 20
-504.7347525331
 10
995.8259515807
 20
-500.6629973654
 10
993.881422431
 20
-496.8369899774
 10
991.7115709607
 20
-493.2675842121
 10
989.3225558782
 20
-489.9648887202
 10
986.7211364843
 20
-486.9382699969
 10
983.9146990142
 20
-484.1963097984
 10
980.9111934171
 20
-481.7467747179
 10
977.7191333565
 20
-479.5966131432
 10
976.8876287189
 20
-479.1036517441
  0
LWPOLYLINE
  5
C7
330
1F
100
AcDbEntity
  8
0
  6
Continuous
 62
     7
370
    25
100
AcDbPolyline
 90
       16
 70
   128
 43
0.0
 10
851.8977882487
 20
-695.6158639923
 10
854.4378470996
 20
-696.9676000261
 10
857.9793572179
 20
-698.5016004356
 10
861.6807830162
 20
-699.7205591166
 10
865.5316246608
 20
-700.6210164985
 10
869.5209661179
 20
-701.2004224854
 10
873.6375041297
 20
-701.457131896
 10
877.8695666533
 20
-701.3904242372
 10
882.2051576419
 20
-701.0004839362
 10
886.6319860208
 20
-700.2884201156
 10
891.1375078342
 20
-699.2562422622
 10
895.7089473187
 20
-697.906884564
 10
900.3333482696
 20
-696.2441640895
 10
904.997603017
 20
-694.272806646
 10
909.6884883166
 20
-691.9983895584
 10
914.3927084838
 20
-689.4273593539
  0
LWPOLYLINE
  5
C8
330
1F
100
AcDbEntity
  8
0
  6
Continuous
 62
     7
370
    25
100
AcDbPolyline
 90
      112
 70
   128
 43
0.0
 10
497.1997261284
 20
-436.5021753336
 10
501.6082331405
 20
-433.8130754798
 10
506.0026183242
 20
-430.8443505747
 10
510.3688052906
 20
-427.6055077456
 10
514.692807213
 20
-424.1069149715
 10
518.9607749002
 20
-420.359791583
 10
523.1590343342
 20
-416.3761379224
 10
527.2741393531
 20
-412.1687049302
 10
531.2929045789
 20
-407.7509812203
 10
535.2024620518
 20
-403.1371177999
 10
538.9902836212
 20
-398.3418847244
 10
542.6442388972
 20
-393.3806498107
 10
546.1526163242
 20
-388.2693056342
 10
549.5041864013
 20
-383.0242269493
 10
552.688212219
 20
-377.662203769
 10
555.6944889713
 20
-372.2004246391
 10
558.5133913719
 20
-366.6563823446
 10
561.1358841901
 20
-361.047837409
 10
563.5535749347
 20
-355.3927511784
 10
565.7587085855
 20
-349.709240193
 10
567.7442308137
 20
-344.0155123143
 10
569.5037774454
 20
-338.3298028453
 10
571.0317113394
 20
-332.6703289061
 10
572.3231434613
 20
-327.0552164314
 10
573.3739276149
 20
-321.5024545422
 10
574.1807025891
 20
-316.0298301503
 10
574.7408868894
 20
-310.654871683
 10
575.0526840063
 20
-305.3947977528
 10
575.1150929523
 20
-300.2664590777
 10
574.9279135297
 20
-295.2862832535
 10
574.4917515995
 20
-290.4702201906
 10
573.8079980078
 20
-285.8337012374
 10
572.8788443906
 20
-281.3915753981
 10
571.7072673691
 20
-277.1580765357
 10
570.2970180128
 20
-273.1467610139
 10
568.6526218397
 20
-269.3704795592
 10
566.779336669
 20
-265.8413301086
 10
564.6831684267
 20
-262.5706137043
 10
562.3708289983
 20
-259.5688131965
 10
559.8497309609
 20
-256.8455384898
 10
557.1279401677
 20
-254.4095204552
 10
554.2141862845
 20
-252.2685592191
 10
551.1177943017
 20
-250.4295059063
 10
547.848689802
 20
-248.8982626401
 10
544.4173357406
 20
-247.6797277834
 10
540.8347350792
 20
-246.7778065851
 10
537.1123570288
 20
-246.1953868384
 10
533.2621265135
 20
-245.9343327965
 10
529.2963767548
 20
-245.9954821257
 10
525.2278123933
 20
-246.3786428607
 10
521.0694647078
 20
-247.082588837
 10
516.8346547365
 20
-248.1050566462
 10
512.5369484964
 20
-249.442771487
 10
508.1901135189
 20
-251.0914540058
 10
503.8080720935
 20
-253.0458229532
 10
499.4048627426
 20
-255.299617425
 10
494.9945895141
 20
-257.8456139668
 10
490.5913801633
 20
-260.675656799
 10
486.2093387378
 20
-263.780685189
 10
481.8625037603
 20
-267.1507515082
 10
477.5647975202
 20
-270.7750626726
 10
473.329987549
 20
-274.6420023822
 10
469.1716398634
 20
-278.7391824487
 10
465.103075502
 20
-283.0534861372
 10
461.1373257432
 20
-287.5710940178
 10
457.2870952279
 20
-292.2775295901
 10
453.5647171776
 20
-297.1577155531
 10
449.9821165161
 20
-302.1960194298
 10
446.5507624548
 20
-307.3763113574
 10
443.2816579551
 20
-312.681982338
 10
440.1852659723
 20
-318.0960537378
 10
437.2715120891
 20
-323.6011635994
 10
434.5497212958
 20
-329.1796943937
 10
432.0286232584
 20
-334.8137669362
 10
429.7162838301
 20
-340.4853377204
 10
427.6201155878
 20
-346.1762384622
 10
425.7468304171
 20
-351.8682369334
 10
424.1024342439
 20
-357.5430977972
 10
422.6921848877
 20
-363.1826525677
 10
421.5206078662
 20
-368.7688254665
 10
420.591454249
 20
-374.2837292376
 10
419.9077006572
 20
-379.709693284
 10
419.4715387271
 20
-385.0293381924
 10
419.2843593045
 20
-390.2256267779
 10
419.3467682504
 20
-395.2819096177
 10
419.6585653673
 20
-400.1819902594
 10
420.2187496676
 20
-404.9101737006
 10
421.0255246418
 20
-409.4513155345
 10
422.0763087954
 20
-413.7908678637
 10
423.3677409174
 20
-417.9149245485
 10
424.8956748114
 20
-421.8102835639
 10
426.655221443
 20
-425.4644637343
 10
428.6407436713
 20
-428.8657564441
 10
430.8458773221
 20
-432.0032743093
 10
433.2635680667
 20
-434.866954223
 10
435.8860608848
 20
-437.4476334006
 10
438.7049632854
 20
-439.7370402602
 10
441.7112400378
 20
-441.7278461337
 10
444.8952658554
 20
-443.413671355
 10
448.2468359325
 20
-444.7891095965
 10
451.7552133596
 20
-445.8497674169
 10
455.4091686355
 20
-446.592235368
 10
459.1969902049
 20
-447.0141427483
 10
463.1065476779
 20
-447.1141271912
 10
467.1253129036
 20
-446.8918833358
 10
471.2404179226
 20
-446.3481172053
 10
475.4386773566
 20
-445.4845636991
 10
479.7066450438
 20
-444.3039964848
 10
484.0306469661
 20
-442.8102029053
 10
488.3968339325
 20
-441.0079535657
 10
492.7912191162
 20
-438.9030293332
 10
497.1997261284
 20
-436.5021753336
  0
LWPOLYLINE
  5
C9
330
1F
100
AcDbEntity
  8
0
  6
Continuous
 62
     7
370
    25
100
AcDbPolyline
 90
       90
 70
   128
 43
0.0
 10
755.647246307
 20
-713.7343416065
 10
759.0395055444
 20
-711.6326563706
 10
762.1665122736
 20
-709.3980706672
 10
765.0126889535
 20
-707.041718335
 10
767.5638449379
 20
-704.5753315994
 10
769.8072821714
 20
-702.0112043868
 10
771.7318165928
 20
-699.3621069758
 10
773.3278676965
 20
-696.6412403776
 10
774.5874736795
 20
-693.8621576401
 10
775.5043678321
 20
-691.0387045422
 10
776.0739798556
 20
-688.1849488816
 10
776.2934727401
 20
-685.3151044414
 10
776.1617506676
 20
-682.4434716831
 10
775.6794695485
 20
-679.5843556304
 10
774.8490370214
 20
-676.7520020006
 10
773.6745834775
 20
-673.9605196498
 10
772.1619646945
 20
-671.2238151838
 10
770.3187144218
 20
-668.5555230071
 10
768.1540180379
 20
-665.9689384127
 10
765.6786559166
 20
-663.4769453503
 10
762.9049658892
 20
-661.0919582596
 10
759.8467605975
 20
-658.8258621947
 10
756.5192756333
 20
-656.6899463882
 10
752.9390939705
 20
-654.6948484623
 10
749.1240481711
 20
-652.8505101385
 10
745.0931439944
 20
-651.1661209727
 10
740.8664703406
 20
-649.6500663669
 10
736.4650723164
 20
-648.309909036
 10
731.9108840639
 20
-647.1523198169
 10
727.2265990267
 20
-646.1830636022
 10
722.4355428513
 20
-645.4069746292
 10
717.5615943616
 20
-644.8279139009
 10
712.6290275082
 20
-644.4487722273
 10
707.6624218062
 20
-644.2714337292
 10
702.68652009
 20
-644.296781921
 10
697.7261099748
 20
-644.5246951482
 10
692.8059053189
 20
-644.954032902
 10
687.9504171489
 20
-645.5826586289
 10
683.1838324874
 20
-646.407439731
 10
678.5299050349
 20
-647.4242680949
 10
674.0118181923
 20
-648.6280783404
 10
669.6520796937
 20
-650.0128721505
 10
665.472408337
 20
-651.5717502064
 10
661.493625324
 20
-653.2969445017
 10
657.735561076
 20
-655.1798660534
 10
654.2169294524
 20
-657.2111288531
 10
650.9552602495
 20
-659.3806131646
 10
647.9668122726
 20
-661.6775157071
 10
645.2664636885
 20
-664.0903886219
 10
642.8676705372
 20
-666.6072120851
 10
640.7823840843
 20
-669.2154481014
 10
639.0209948451
 20
-671.9021032327
 10
637.5922772667
 20
-674.6537939864
 10
636.503347581
 20
-677.4568076431
 10
635.7596321947
 20
-680.2971813319
 10
635.364832128
 20
-683.1607651383
 10
635.3209230144
 20
-686.0332920556
 10
635.6281155881
 20
-688.9004524982
 10
636.2848793917
 20
-691.7479627317
 10
637.2879506787
 20
-694.5616333041
 10
638.6323218765
 20
-697.3274511621
 10
640.3113048072
 20
-700.0316313539
 10
642.3165254188
 20
-702.6607082707
 10
644.6379975424
 20
-705.201581266
 10
647.2641656975
 20
-707.6415880294
 10
650.1819294582
 20
-709.9685794792
 10
653.3767633082
 20
-712.1709585402
 10
656.8327487452
 20
-714.2377534212
 10
660.5326643363
 20
-716.1586696032
 10
664.458083183
 20
-717.9241339391
 10
668.5894496415
 20
-719.5253511091
 10
672.9061759641
 20
-720.9543472446
 10
677.3867573799
 20
-722.2039998674
 10
682.0088758155
 20
-723.2680856002
 10
686.7495006525
 20
-724.1413018366
 10
691.5850138505
 20
-724.8192994359
 10
696.4913258514
 20
-725.2986979296
 10
701.4439967516
 20
-725.5771128934
 10
706.4183495711
 20
-725.6531544273
 10
711.3896045973
 20
-725.5264438822
 10
716.3329900199
 20
-725.1976138604
 10
721.2238841769
 20
-724.6683021328
 10
726.0379182872
 20
-723.9411470767
 10
730.75110816
 20
-723.0197663867
 10
735.3399766834
 20
-721.9087563137
 10
739.781656558
 20
-720.613647566
 10
744.0540266153
 20
-719.1408965646
 10
748.1357908429
 20
-717.4978337408
 10
752.006626228
 20
-715.6926511805
 10
755.647246307
 20
-713.7343416065
  0
LWPOLYLINE
  5
CA
330
1F
100
AcDbEntity
  8
0
  6
Continuous
 62
     7
370
    25
100
AcDbPolyline
 90
       95
 70
   128
 43
0.0
 10
762.3647585366
 20
-717.6122788725
 10
766.0167958017
 20
-715.3581513085
 10
769.3998722945
 20
-712.9682396903
 10
772.4988852845
 20
-710.4532212726
 10
775.2999819586
 20
-707.8243230356
 10
777.7906578739
 20
-705.0932891802
 10
779.9597928477
 20
-702.2723178298
 10
781.7976931049
 20
-699.374006286
 10
783.2961531809
 20
-696.4113031271
 10
784.4484769952
 20
-693.3974352158
 10
785.2495226322
 20
-690.345863599
 10
785.6957102439
 20
-687.2702242019
 10
785.7850483919
 20
-684.1842457109
 10
785.517136681
 20
-681.1017145983
 10
784.893171028
 20
-678.0363960469
 10
783.9159410275
 20
-675.0019837675
 10
782.5898062442
 20
-672.0120285273
 10
780.9206962128
 20
-669.0798803638
 10
778.9160603887
 20
-666.2186414438
 10
776.584851026
 20
-663.4410892693
 10
773.9374876159
 20
-660.7596257349
 10
770.9857851055
 20
-658.1862296059
 10
767.7429295314
 20
-655.7323937913
 10
764.2234060739
 20
-653.4090777266
 10
760.4429328734
 20
-651.2266570021
 10
756.4183953404
 20
-649.1948793577
 10
752.1677664715
 20
-647.3228186827
 10
747.7100306232
 20
-645.6188370937
 10
743.0650962546
 20
-644.0905467276
 10
738.2537134444
 20
-642.7447682083
 10
733.2973652317
 20
-641.5875165798
 10
728.2181852974
 20
-640.6239598686
 10
723.0388697194
 20
-639.8583985536
 10
717.7825439466
 20
-639.2942556824
 10
712.4726811395
 20
-638.9340479782
 10
707.1330020712
 20
-638.7793858396
 10
701.7873513214
 20
-638.8309596546
 10
696.4596103479
 20
-639.0885382802
 10
691.1735605102
 20
-639.5509720832
 10
685.9528224827
 20
-640.2161944615
 10
680.8207140091
 20
-641.0812370504
 10
675.8001471702
 20
-642.142234285
 10
670.9135519918
 20
-643.3944492512
 10
666.1827500047
 20
-644.8322858519
 10
661.6288712681
 20
-646.4493245422
 10
657.2722595388
 20
-648.238346661
 10
653.1323626241
 20
-650.1913551493
 10
649.2276760756
 20
-652.2996313865
 10
645.5756388105
 20
-654.5537589505
 10
642.1925623177
 20
-656.9436705687
 10
639.0935493277
 20
-659.4586889863
 10
636.2924526536
 20
-662.0875872233
 10
633.8017767383
 20
-664.8186210787
 10
631.6326417644
 20
-667.6395924292
 10
629.7947415073
 20
-670.537903973
 10
628.2962814313
 20
-673.5006071318
 10
627.143957617
 20
-676.5144750432
 10
626.34291198
 20
-679.56604666
 10
625.8967243683
 20
-682.6416860571
 10
625.8073862203
 20
-685.7276645481
 10
626.0752979312
 20
-688.8101956607
 10
626.6992635842
 20
-691.8755142121
 10
627.6764935847
 20
-694.9099264914
 10
629.002628368
 20
-697.8998817316
 10
630.6717383994
 20
-700.8320298952
 10
632.6763742235
 20
-703.6932688152
 10
635.0075835862
 20
-706.4708209896
 10
637.6549469963
 20
-709.1522845241
 10
640.6066495067
 20
-711.725680653
 10
643.8495050808
 20
-714.1795164677
 10
647.3690285383
 20
-716.5028325323
 10
651.1495017388
 20
-718.6852532568
 10
655.1740392718
 20
-720.7170309012
 10
659.4246681407
 20
-722.5890915762
 10
663.882403989
 20
-724.2930731652
 10
668.5273383576
 20
-725.8213635313
 10
673.3387211678
 20
-727.1671420507
 10
678.2950693805
 20
-728.3243936791
 10
683.3742493148
 20
-729.2879503904
 10
688.5535648928
 20
-730.0535117054
 10
693.8098906656
 20
-730.6176545765
 10
699.1197534727
 20
-730.9778622807
 10
704.459432541
 20
-731.1325244194
 10
709.8050832908
 20
-731.0809506043
 10
715.1328242643
 20
-730.8233719788
 10
720.418874102
 20
-730.3609381757
 10
725.6396121295
 20
-729.6957157974
 10
730.7717206031
 20
-728.8306732085
 10
735.792287442
 20
-727.769675974
 10
740.6788826204
 20
-726.5174610078
 10
745.4096846075
 20
-725.0796244071
 10
749.9635633441
 20
-723.4625857167
 10
754.3201750734
 20
-721.673563598
 10
758.4600719881
 20
-719.7205551097
 10
762.3647585366
 20
-717.6122788725
  0
ENDSEC
  0
SECTION
  2
OBJECTS
  0
DICTIONARY
  5
C
330
0
100
AcDbDictionary
281
     1
  3
ACAD_GROUP
350
D
  3
ACAD_LAYOUT
350
1A
  3
ACAD_MLINESTYLE
350
17
  3
ACAD_PLOTSETTINGS
350
19
  3
ACAD_PLOTSTYLENAME
350
E
  3
ACAD_SCALELIST
350
47
  0
DICTIONARY
  5
D
102
{ACAD_REACTORS
330
C
102
}
330
C
100
AcDbDictionary
281
     1
  0
DICTIONARY
  5
1A
102
{ACAD_REACTORS
330
C
102
}
330
C
100
AcDbDictionary
281
     1
  3
Layout1
350
1E
  3
Layout2
350
26
  3
Model
350
22
  0
DICTIONARY
  5
17
102
{ACAD_REACTORS
330
C
102
}
330
C
100
AcDbDictionary
281
     1
  3
Standard
350
18
  0
DICTIONARY
  5
19
102
{ACAD_REACTORS
330
C
102
}
330
C
100
AcDbDictionary
281
     1
  0
ACDBDICTIONARYWDFLT
  5
E
102
{ACAD_REACTORS
330
C
102
}
330
C
100
AcDbDictionary
281
     1
  3
Normal
350
F
100
AcDbDictionaryWithDefault
340
F
  0
DICTIONARY
  5
47
102
{ACAD_REACTORS
330
C
102
}
330
C
100
AcDbDictionary
281
     1
  3
A0
350
48
  3
A1
350
49
  3
A2
350
4A
  3
A3
350
4B
  3
A4
350
4C
  3
A5
350
4D
  3
A6
350
4E
  3
A7
350
4F
  3
A8
350
50
  3
A9
350
51
  3
B0
350
52
  3
B1
350
53
  3
B2
350
54
  3
B3
350
55
  3
B4
350
56
  3
B5
350
57
  3
B6
350
58
  3
B7
350
59
  3
B8
350
5A
  3
B9
350
5B
  3
C0
350
5C
  3
C1
350
5D
  3
C2
350
5E
  3
C3
350
5F
  3
C4
350
60
  3
C5
350
61
  3
C6
350
62
  3
C7
350
63
  3
C8
350
64
  3
C9
350
65
  3
D0
350
66
  3
D1
350
67
  3
D2
350
68
  0
LAYOUT
  5
1E
102
{ACAD_REACTORS
330
1A
102
}
330
1A
100
AcDbPlotSettings
  1

  2
none_device
  4

  6

 40
0.0
 41
0.0
 42
0.0
 43
0.0
 44
0.0
 45
0.0
 46
0.0
 47
0.0
 48
0.0
 49
0.0
140
0.0
141
0.0
142
1.0
143
1.0
 70
   688
 72
     1
 73
     0
 74
     5
  7

 75
    16
147
1.0
148
0.0
149
0.0
100
AcDbLayout
  1
Layout1
 70
     1
 71
     1
 10
0.0
 20
0.0
 11
420.0
 21
297.0
 12
0.0
 22
0.0
 32
0.0
 14
1.0000000000E+20
 24
1.0000000000E+20
 34
1.0000000000E+20
 15
-1.0000000000E+20
 25
-1.0000000000E+20
 35
-1.0000000000E+20
146
0.0
 13
0.0
 23
0.0
 33
0.0
 16
1.0
 26
0.0
 36
0.0
 17
0.0
 27
1.0
 37
0.0
 76
     0
330
1B
  0
LAYOUT
  5
26
102
{ACAD_REACTORS
330
1A
102
}
330
1A
100
AcDbPlotSettings
  1

  2
none_device
  4

  6

 40
0.0
 41
0.0
 42
0.0
 43
0.0
 44
0.0
 45
0.0
 46
0.0
 47
0.0
 48
0.0
 49
0.0
140
0.0
141
0.0
142
1.0
143
1.0
 70
   688
 72
     1
 73
     0
 74
     5
  7

 75
    16
147
1.0
148
0.0
149
0.0
100
AcDbLayout
  1
Layout2
 70
     1
 71
     2
 10
0.0
 20
0.0
 11
0.0
 21
0.0
 12
0.0
 22
0.0
 32
0.0
 14
0.0
 24
0.0
 34
0.0
 15
0.0
 25
0.0
 35
0.0
146
0.0
 13
0.0
 23
0.0
 33
0.0
 16
1.0
 26
0.0
 36
0.0
 17
0.0
 27
1.0
 37
0.0
 76
     0
330
23
  0
LAYOUT
  5
22
102
{ACAD_REACTORS
330
1A
102
}
330
1A
100
AcDbPlotSettings
  1

  2
none_device
  4
Letter_(8.50_x_11.00_Inches)
  6

 40
6.35
 41
6.35
 42
6.35000508
 43
6.35000508
 44
215.9
 45
279.4
 46
0.0
 47
0.0
 48
0.0
 49
0.0
140
0.0
141
0.0
142
1.0
143
1.0
 70
  1712
 72
     1
 73
     0
 74
     0
  7

 75
     0
147
1.0
148
0.0
149
0.0
100
AcDbLayout
  1
Model
 70
     1
 71
     0
 10
0.0
 20
0.0
 11
279.4
 21
215.9
 12
0.0
 22
0.0
 32
0.0
 14
0.0
 24
0.0
 34
0.0
 15
279.4
 25
215.9
 35
0.0
146
0.0
 13
0.0
 23
0.0
 33
0.0
 16
1.0
 26
0.0
 36
0.0
 17
0.0
 27
1.0
 37
0.0
 76
     0
330
1F
331
29
  0
MLINESTYLE
  5
18
102
{ACAD_REACTORS
330
17
102
}
330
17
100
AcDbMlineStyle
  2
Standard
 70
     0
  3

 62
   256
 51
90.0
 52
90.0
 71
     2
 49
0.5
 62
   256
  6
BYLAYER
 49
-0.5
 62
   256
  6
BYLAYER
  0
ACDBPLACEHOLDER
  5
F
102
{ACAD_REACTORS
330
E
102
}
330
E
  0
SCALE
  5
48
102
{ACAD_REACTORS
330
47
102
}
330
47
100
AcDbScale
 70
     0
300
1:1
140
1.0
141
1.0
290
     1
  0
SCALE
  5
49
102
{ACAD_REACTORS
330
47
102
}
330
47
100
AcDbScale
 70
     0
300
1:2
140
1.0
141
2.0
290
     0
  0
SCALE
  5
4A
102
{ACAD_REACTORS
330
47
102
}
330
47
100
AcDbScale
 70
     0
300
1:4
140
1.0
141
4.0
290
     0
  0
SCALE
  5
4B
102
{ACAD_REACTORS
330
47
102
}
330
47
100
AcDbScale
 70
     0
300
1:5
140
1.0
141
5.0
290
     0
  0
SCALE
  5
4C
102
{ACAD_REACTORS
330
47
102
}
330
47
100
AcDbScale
 70
     0
300
1:8
140
1.0
141
8.0
290
     0
  0
SCALE
  5
4D
102
{ACAD_REACTORS
330
47
102
}
330
47
100
AcDbScale
 70
     0
300
1:10
140
1.0
141
10.0
290
     0
  0
SCALE
  5
4E
102
{ACAD_REACTORS
330
47
102
}
330
47
100
AcDbScale
 70
     0
300
1:16
140
1.0
141
16.0
290
     0
  0
SCALE
  5
4F
102
{ACAD_REACTORS
330
47
102
}
330
47
100
AcDbScale
 70
     0
300
1:20
140
1.0
141
20.0
290
     0
  0
SCALE
  5
50
102
{ACAD_REACTORS
330
47
102
}
330
47
100
AcDbScale
 70
     0
300
1:30
140
1.0
141
30.0
290
     0
  0
SCALE
  5
51
102
{ACAD_REACTORS
330
47
102
}
330
47
100
AcDbScale
 70
     0
300
1:40
140
1.0
141
40.0
290
     0
  0
SCALE
  5
52
102
{ACAD_REACTORS
330
47
102
}
330
47
100
AcDbScale
 70
     0
300
1:50
140
1.0
141
50.0
290
     0
  0
SCALE
  5
53
102
{ACAD_REACTORS
330
47
102
}
330
47
100
AcDbScale
 70
     0
300
1:100
140
1.0
141
100.0
290
     0
  0
SCALE
  5
54
102
{ACAD_REACTORS
330
47
102
}
330
47
100
AcDbScale
 70
     0
300
2:1
140
2.0
141
1.0
290
     0
  0
SCALE
  5
55
102
{ACAD_REACTORS
330
47
102
}
330
47
100
AcDbScale
 70
     0
300
4:1
140
4.0
141
1.0
290
     0
  0
SCALE
  5
56
102
{ACAD_REACTORS
330
47
102
}
330
47
100
AcDbScale
 70
     0
300
8:1
140
8.0
141
1.0
290
     0
  0
SCALE
  5
57
102
{ACAD_REACTORS
330
47
102
}
330
47
100
AcDbScale
 70
     0
300
10:1
140
10.0
141
1.0
290
     0
  0
SCALE
  5
58
102
{ACAD_REACTORS
330
47
102
}
330
47
100
AcDbScale
 70
     0
300
100:1
140
100.0
141
1.0
290
     0
  0
SCALE
  5
59
102
{ACAD_REACTORS
330
47
102
}
330
47
100
AcDbScale
 70
     0
300
1/128" = 1'-0"
140
0.0078125
141
12.0
290
     0
  0
SCALE
  5
5A
102
{ACAD_REACTORS
330
47
102
}
330
47
100
AcDbScale
 70
     0
300
1/64" = 1'-0"
140
0.015625
141
12.0
290
     0
  0
SCALE
  5
5B
102
{ACAD_REACTORS
330
47
102
}
330
47
100
AcDbScale
 70
     0
300
1/32" = 1'-0"
140
0.03125
141
12.0
290
     0
  0
SCALE
  5
5C
102
{ACAD_REACTORS
330
47
102
}
330
47
100
AcDbScale
 70
     0
300
1/16" = 1'-0"
140
0.0625
141
12.0
290
     0
  0
SCALE
  5
5D
102
{ACAD_REACTORS
330
47
102
}
330
47
100
AcDbScale
 70
     0
300
3/32" = 1'-0"
140
0.09375
141
12.0
290
     0
  0
SCALE
  5
5E
102
{ACAD_REACTORS
330
47
102
}
330
47
100
AcDbScale
 70
     0
300
1/8" = 1'-0"
140
0.125
141
12.0
290
     0
  0
SCALE
  5
5F
102
{ACAD_REACTORS
330
47
102
}
330
47
100
AcDbScale
 70
     0
300
3/16" = 1'-0"
140
0.1875
141
12.0
290
     0
  0
SCALE
  5
60
102
{ACAD_REACTORS
330
47
102
}
330
47
100
AcDbScale
 70
     0
300
1/4" = 1'-0"
140
0.25
141
12.0
290
     0
  0
SCALE
  5
61
102
{ACAD_REACTORS
330
47
102
}
330
47
100
AcDbScale
 70
     0
300
3/8" = 1'-0"
140
0.375
141
12.0
290
     0
  0
SCALE
  5
62
102
{ACAD_REACTORS
330
47
102
}
330
47
100
AcDbScale
 70
     0
300
1/2" = 1'-0"
140
0.5
141
12.0
290
     0
  0
SCALE
  5
63
102
{ACAD_REACTORS
330
47
102
}
330
47
100
AcDbScale
 70
     0
300
3/4" = 1'-0"
140
0.75
141
12.0
290
     0
  0
SCALE
  5
64
102
{ACAD_REACTORS
330
47
102
}
330
47
100
AcDbScale
 70
     0
300
1" = 1'-0"
140
1.0
141
12.0
290
     0
  0
SCALE
  5
65
102
{ACAD_REACTORS
330
47
102
}
330
47
100
AcDbScale
 70
     0
300
1-1/2" = 1'-0"
140
1.5
141
12.0
290
     0
  0
SCALE
  5
66
102
{ACAD_REACTORS
330
47
102
}
330
47
100
AcDbScale
 70
     0
300
3" = 1'-0"
140
3.0
141
12.0
290
     0
  0
SCALE
  5
67
102
{ACAD_REACTORS
330
47
102
}
330
47
100
AcDbScale
 70
     0
300
6" = 1'-0"
140
6.0
141
12.0
290
     0
  0
SCALE
  5
68
102
{ACAD_REACTORS
330
47
102
}
330
47
100
AcDbScale
 70
     0
300
1'-0" = 1'-0"
140
12.0
141
12.0
290
     0
  0
ENDSEC
  0
EOF
